HXA7241

other
any other things produced
"artefact-metadata-hxa7241-www": {
  "title": "Vivaldi's RV550 mov 2 for Guitar",
  "author": "Harrison Ainsworth",
  "date": "2017-09-10",
  "id": "urn:uuid:7E7CD944-F0AE-4445-A5FB-94F81DE17ABA",
  "type": "tab",
  "subtype": "text/html",
  "wordcount": 520,
  "hashsecure": "sha256:a4328b045c8a927e747660e7043002f6a0c96019d8ebac4eae6ee78ea371892c",
  "location": "http://www.hxa.name/music/Vivaldi-RV550-m2-Guitar.html"
}

Vivaldi's RV550 mov 2 for Guitar

an arrangement and transcription of opus 3 concerto 4 movement 2

Description

This is Antonio Vivaldi's ‘L'Estro Armonico’ Opus 3 Concerto 4 in E-minor (RV550) movement 2, arranged and transcribed for solo electric guitar.

The arrangement was made via three transforms: lowering violin notes by one octave; selectively interleaving the four violin parts/voices into a single part; and, transposing some sections up or down an octave.

The transcription was into GITI v4 format, and rendered here in tab-form.

Download it all as a text/giti file.

The original source is an Estienne Roger publication of 1711, from IMSLP (International Music Score Library Project).

Movement 2 : Allegro assai

(141 bars, 760 notes)

Standard tuning, tempo 130bpm – about 2m10s.

Section 2.1 : bars 1 - 16.5

violino primo (lowered an octave)


                                       u      
|-------------|------|-----------|-----------|
|-------------|------|-----------|-----------|
|---4---------|------|-----------|-----------|
|-----------4-|------|-4-------7-|-7-5-4---5-|
|-----7---7---|-6--7-|-----------|-----------|
|-------------|------|---5---5---|-----------|
|2: 4   '       2* 4   4   '       4 8   ' 2  

                      -   - -   - -   - -   - +  
|-----------|-----------|-----------|-----------|
|-----------|-----------|-----------|-----------|
|-4-------5-|-4-------5-|-4-------5-|-4-------5-|
|-----------|-----------|-----------|-----------|
|---7---7---|---7---7---|---7---7---|---7---7---|
|-----------|-----------|-----------|-----------|
  4   '       4   '       4   '       4   '      

  + +   + +   + + +   + +   + +   - -   - -   + +  
|-----------|-------------|-----------|-----------|
|-----------|-------------|-----------|-----------|
|-5-4---4-3-|-2-------4---|-------4---|-------4---|
|-----------|---6-4-----4-|-5-4-----4-|-5-4-----4-|
|-----------|-------------|-----------|-----------|
|-----------|-------------|-----------|-----------|
  4   '       4 8   ' 4     4   '       4   '      

  + +   + +   + +   + +   +    +   +    
|-----------|-----------|--------|------
|-----------|-----------|--------|------
|-----------|-----------|--------|------
|-5-4-------|-----------|--------|------
|-------7-5-|---------7-|--------|------
|-----------|-7-6---7---|-10---9-|-7----
  4   '       4   '       2  '     2 '  

Section 2.2 : bars 16.5 - 24.75

violino primo


      h  h      h  h       h             u      u    u         u     u    u  
--.---------|--------------------|----------------------|-------------------|
--.---------|---------10---12----|----------------------|-------------------|
--.---------|-9-11-12------------|----10-9---10-9-------|----9-7---9-7------|
--.-9-11-13-|-----------------12-|-12-------------12-11-|-12-----------10-9-|
--.---------|--------------------|----------------------|-------------------|
--.---------|--------------------|----------------------|-------------------|
  8           8          ' 4       4  8    '              4  8   '           

             h h      h h      h            u     u    u        u     u   u  
|--------.--------|------------------|-------------------|------------------|
|--------.--------|--------8---10----|-------------------|------------------|
|--------.--------|-7-9-11-----------|----9-7---9-7------|----7-5---7-5-----|
|-10-7---.-7-9-10-|---------------10-|-10-----------10-9-|-10-----------9-7-|
|--------.--------|------------------|-------------------|------------------|
|--------.--------|------------------|-------------------|------------------|
  4    ' 8          8        ' 4       4  8   '            4  8   '          

           
|----------
|----------
|----------
|-9-5---5--
|----------
|----------
  4   '    

Section 2.3 : bars 24.75 - 32

violino primo (lowered an octave)


          h       u       h       u                          
----|---------------|---------------|---.-----.-|---.-----.-|
----|---------------|---------------|---.-----.-|---.-----.-|
----|---------------|---------------|---.-----.-|---.-----.-|
--5-|---------5-7-5-|---------5-7-5-|---.---5-.-|---.---5-.-|
----|-9-7-9---------|-9-7-9---------|-9-.-----.-|-9-.-----.-|
----|---------------|---------------|---.-----.-|---.-----.-|
  4   4 8   ' 4 8     4 8   ' 4 8     4   '       4   '      

                                           
|-----.---|-----------|-----------|-------|
|-----.---|-----------|-----------|-------|
|-----.-4-|-5-4-------|-----------|-------|
|-----.---|-------7-5-|---------7-|-5-----|
|-9---.---|-----------|-7-6---7---|-----9-|
|-----.---|-----------|-----------|-------|
  2 ' 4     4   '       4   '       2 '    

Section 2.4 : bars 33 - 38.625

violino secondo


    h   u     h   h     h   h     h   u     h   h      
|-------------------|-------------------|-------------|
|-5-8-7-5-----------|-5-8-7-8---5-8-7-5-|-------------|
|-----------8-9-6-8-|-------------------|-8-9-6-8-----|
|-------------------|-------------------|-----------9-|
|-------------------|-------------------|-------------|
|-------------------|-------------------|-------------|
  8       '           8       '           8       ' 2  

violino quarto (bars 36 - 38.625)


  $ $ $ $   $ $ $ $   $ $ $ $   $ $ $ $   $ $ $ $   $  
|-------------------|-------------------|--------------
|-5-8-7-5-----------|-5-8-7-8---5-8-7-5-|--------------
|-----------8-9-6-8-|-------------------|-8-9-6-8------
|-------------------|-------------------|-----------9--
|-------------------|-------------------|--------------
|-------------------|-------------------|--------------
  8       '           8       '           8       '    

Section 2.5 : bars 38.625 - 50

violino primo


    h h        h h         u u  
---------|-7----------7--------|
--7-8-10-|---7-8-10-----10-8-7-|
---------|---------------------|
---------|---------------------|
---------|---------------------|
---------|---------------------|
  8        8        '           

  h h  w w   w                 u u   h h w w   w                 u u  
|------7-------7--|-8--7---5-------|-----5-------5--|-7--5---3-------|
|-8-10---8--------|----------8-7-5-|-7-8---7--------|----------7-5-3-|
|------------9----|----------------|-----------7----|----------------|
|-----------------|----------------|----------------|----------------|
|-----------------|----------------|----------------|----------------|
|-----------------|----------------|----------------|----------------|
  8        ' 4 4s   4* 8 '           8       ' 4 4s   4* 8 '          

  h h w w   w                 u u  
|-----3-------3--|-5--7---5-3-----|
|-5-7---5--------|------------7-5-|
|-----------5----|----------------|
|----------------|----------------|
|----------------|----------------|
|----------------|----------------|
  8       ' 4 4s   4* 8 '          
                                                               
|-------------------|-------------------|---------------------|
|-4-0-0-4---5-0-0-5-|-7-0-0-7---8-0-0-8-|-10-0-0-10---8-0-0-8-|
|-------------------|-------------------|---------------------|
|-------------------|-------------------|---------------------|
|-------------------|-------------------|---------------------|
|-------------------|-------------------|---------------------|
  8       '           8       '           8         '          
                                          
|-------------------|--------------------|
|-7-0-0-7---5-0-0-5-|-5-----5---4-0-0----|
|-------------------|---2-2-----------20-|
|-------------------|--------------------|
|-------------------|--------------------|
|-------------------|--------------------|
  8       '           8       '           

Section 2.6 : bars 51 - 61

violino terzo (raised an octave (including last note of last section and first note of next section))


        w  w    w                     u  u   
|-------19---------19-|-20-19---17----------|
|-20-22----20---------|------------20-19-17-|
|---------------21----|---------------------|
|---------------------|---------------------|
|---------------------|---------------------|
|---------------------|---------------------|
  8           ' 4  4s   4* 8  '              

  h  h  w  w    w                     u  u   
|-------17---------17-|-19-17---15----------|
|-19-20----19---------|------------19-17-15-|
|---------------19----|---------------------|
|---------------------|---------------------|
|---------------------|---------------------|
|---------------------|---------------------|
  8           ' 4  4s   4* 8  '              

  h  h  w  w    w                     u  u   
|-------15---------15-|-17-19---17-15-------|
|-17-19----17---------|---------------19-17-|
|---------------17----|---------------------|
|---------------------|---------------------|
|---------------------|---------------------|
|---------------------|---------------------|
  8           ' 4  4s   4* 8  '              

                                                 
|-----------------------|-----------------------|
|-16-0-0-16---17-0-0-17-|-19-0-0-19---20-0-0-20-|
|-----------------------|-----------------------|
|-----------------------|-----------------------|
|-----------------------|-----------------------|
|-----------------------|-----------------------|
  8         '             8         '            

                                                       
|----------------------19-|-18-------18---19-------19-|
|-19-0-0-19---20----------|----19-19------------------|
|----------------21-21----|------------------19-19----|
|-------------------------|---------------------------|
|-------------------------|---------------------------|
|-------------------------|---------------------------|
  8         '               8           '              

                             
|-19-------19---18-------18-|
|------------------19-19----|
|----18-18------------------|
|---------------------------|
|---------------------------|
|---------------------------|
  8           '              

Section 2.7 : bars 62 - 72

violino primo


                                      u      
|------------|------|-----------|-----------|
|-19-0---0---|------|-----------|-----------|
|----------6-|------|-6-------9-|-9-7-6---7-|
|------------|-8--9-|-----------|-----------|
|------------|------|---7---7---|-----------|
|------------|------|-----------|-----------|
  4    '       2* 4   4   '       4 8   ' 2  

(rest of section lowered an octave)


                      -   - -   - -   - -   - +  
|-----------|-----------|-----------|-----------|
|-----------|-----------|-----------|-----------|
|-----------|-----------|-----------|-----------|
|-4-------5-|-4-------5-|-4-------5-|-4-------5-|
|-----------|-----------|-----------|-----------|
|---7---7---|---7---7---|---7---7---|---7---7---|
  4   '       4   '       4   '       4   '      

  + +   + +   + +   + +   +   +  
|-----------|-----------|-------|
|-----------|-----------|-------|
|-----------|-----------|-------|
|-5-4-------|-----------|-------|
|-------7-5-|---------7-|-5---4-|
|-----------|-7-6---7---|-------|
  4   '       4   '       2 '    

Section 2.8 : bars 73 - 88

violino primo


                                                           
|-----------------------------|---------------------------|
|-----------------------------|-12------------------------|
|--------------------11-12-14-|------------------11-12-14-|
|------------12---14----------|-------11-13---14----------|
|-4/14-14-15------------------|----14---------------------|
|-----------------------------|---------------------------|
  8             '               8           '              

                                 w  w  w    w            
|---------------------------|---------------------------|
|-12------------------------|-12------------12----------|
|------------------11-12-14-|----------11------14-13-11-|
|-------11-13---14----------|-------13------------------|
|----14---------------------|----14---------------------|
|---------------------------|---------------------------|
  8           '               8           '              

violino secondo (bars 77 - 80)


  $ $  $ $    $  $ $  $    $ $  $ $    $  $ $  $   
|------------------------|------------------------|
|------------------------|------------------------|
|-9----------------------|-9----------------------|
|----------------9-10-12-|----------------9-10-12-|
|------9-11---12---------|------9-11---12---------|
|---12-------------------|---12-------------------|
  8         '              8         '             

  $ $  $ $    $  $ $  $    $ w$ w$ w$   w$ $  $  $  
|------------------------|-------------------------|
|------------------------|-------------------------|
|-9----------------------|-9------------9----------|
|----------------9-10-12-|---------9-------12-11-9-|
|------9-11---12---------|------11-----------------|
|---12-------------------|---12--------------------|
  8         '              8          '             

violino terzo (bars 81 - 84)


  h  h h h    h h h  h   h  h h h    h h h  h  
|----------------------|----------------------|
|-10-----------------8-|-10-----------------8-|
|-------------7-9-11---|-------------7-9-11---|
|----7-9-11------------|----7-9-11------------|
|----------------------|----------------------|
|----------------------|----------------------|
  8         '            8         '           

  h  h h h    h h h  h   h  h h h   h  u u h  
|----------------------|---------------------|
|-10-----------------8-|-10---------10-8-7---|
|-------------7-9-11---|------6-9----------9-|
|----7-9-11------------|----7----------------|
|----------------------|---------------------|
|----------------------|---------------------|
  8         '            8        '           

violino quarto (bars 85 - 88)


  e e  e e   e  e e e    e e  e e   e  e e e   
|----------------------|----------------------|
|----------------------|----------------------|
|-7--------------------|-7--------------------|
|---------------7-9-10-|---------------7-9-10-|
|------7-9---10--------|------7-9---10--------|
|---10-----------------|---10-----------------|
  8        '             8        '            

  e e  e e   e  e e e    e e  e e   e e  e e  
|----------------------|---------------------|
|----------------------|---------------------|
|-7--------------------|-7----------7--------|
|---------------7-9-10-|--------7-----10-9-7-|
|------7-9---10--------|------9--------------|
|---10-----------------|---10----------------|
  8        '             8        '           

Section 2.9 : bars 89 - 94

violino primo


                          w  w w   w        
|---------------------|--------------------|
|-8-----------------7-|-8----------8-7-----|
|---------------7-9---|--------7-------9-7-|
|------7-9---10-------|------9-------------|
|---10----------------|---10---------------|
|---------------------|--------------------|
  8        '            8        '          

                              w  w  w   w           
|------------------------|-------------------------|
|------------------------|-10-----------10---------|
|-9--------------9-11-12-|----------9------12-11-9-|
|------9-10---12---------|-------11----------------|
|---12-------------------|----12-------------------|
|------------------------|-------------------------|
  8         '              8          '             

                                 w  w  w    w            
|---------------------------|---------------------------|
|---------------------------|-12------------12----------|
|-11---------------11-12-14-|----------11------14-12-11-|
|-------11-12---14----------|-------13------------------|
|----14---------------------|----14---------------------|
|---------------------------|---------------------------|
  8           '               8           '              

Section 2.10 : bars 95 - 114

violino primo (lowered an octave: first and fourth blocks)


                                          h   h u   u   h   h u   u        
|-----------|-----------|-----------|-------------|-------------|---------|
|-----------|-----------|-----------|-------------|-------------|---------|
|---4---4-5-|---------4-|-----------|-------------|-------------|---------|
|-5---------|-7-7---7---|-5-5---5-7-|-4-4-5---7-5-|-4-4-5---7-5-|-4-------|
|-----------|-----------|-----------|-------------|-------------|---------|
|-----------|-----------|-----------|-------------|-------------|---7---7-|
  4   '       4   '       4   '       4 8   ' 4     4 8   ' 4     4   ' 2  

  -  -    -  -    -  -    -  -    - -   - -   
|---------------|---------------|------------|
|----12---12-13-|-10-10---10-12-|-8-8---8-10-|
|-12------------|---------------|------------|
|---------------|---------------|------------|
|---------------|---------------|------------|
|---------------|---------------|------------|
  4     '         4     '         4   '       

  - - h-   h- u-   u- - h-   h- u-   u- -   -  
|----------------|-----------------|----------|
|-7-7-8----10-8--|-7--7-8----10-8--|-7--------|
|----------------|-----------------|----------|
|----------------|-----------------|----9---9-|
|----------------|-----------------|----------|
|----------------|-----------------|----------|
  4 8    ' 4       4  8    ' 4       4    ' 2  

                                  
|-----------|-----------|--------|
|-----------|-----------|--------|
|-4-------4-|-5---------|--------|
|-----------|---------7-|--------|
|---7---7---|---6---7---|-10---9-|
|-----------|-----------|--------|
  4   '       4   '       2  '    

      h    h           h   h          h    h           h   h     
|----------------|--------------|----------------|--------------|
|---8-10---12-10-|-8-7-8---10-8-|-7-8-10---12-10-|-8-7-8---10-8-|
|-9--------------|--------------|----------------|--------------|
|----------------|--------------|----------------|--------------|
|----------------|--------------|----------------|--------------|
|----------------|--------------|----------------|--------------|
  4 8    ' 4       4 8   ' 4      4 8    ' 4       4 8   ' 4     

         
|-----.-|
|-7---.-|
|-----.-|
|-----.-|
|-----.-|
|-----.-|
  2 '    

Section 2.11 : bars 115 - 131

violino quarto


  $ $ h$   h$ $   $ $ h$   h$ $    $ $ h$   h$ $  
|---------------|----------------|---------------|
|---------------|----------------|---------------|
|-9-8-9----11-9-|-8-9-11---12-11-|-9-8-9----11-9-|
|---------------|----------------|---------------|
|---------------|----------------|---------------|
|---------------|----------------|---------------|
  4 8    '        4 8    '         4 8    '       

violino primo (bars 118 - 124)


        u   h  h       u  u   h  h       u  u   h  h   
|-----------------|-----------------|-----------------|
|-----------------|-----------------|-----------------|
|-11-11-9---11-11-|-12-11-9---11-11-|-12-11-9---11-11-|
|-----------------|-----------------|-----------------|
|-----------------|-----------------|-----------------|
|-----------------|-----------------|-----------------|
  4  8    ' 4       4  8    ' 4       4  8    ' 4      

                                 w    w  w             
|-----------|---------------|---------------|---------|
|-8-8---9-9-|-10-10---11-11-|-12------------|---------|
|-----------|---------------|---------------|-12---11-|
|-----------|---------------|------------7h-|---------|
|-----------|---------------|---------7h----|---------|
|-----------|---------------|----7h---------|---------|
  4   '       4     '         4     '         2  '     

violino terzo (raised an octave) (bars 125 - 131)


  -  u- u-   h- -    -  u- u-   h- -    -  u- u-   h- -   
|-15-14-12---14-14-|-15-14-12---14-14-|-15-14-12---14-14-|
|------------------|------------------|------------------|
|------------------|------------------|------------------|
|------------------|------------------|------------------|
|------------------|------------------|------------------|
|------------------|------------------|------------------|
  4  8     ' 4       4  8     ' 4       4  8     ' 4      

  -  -    -  -    -  -    -  -    -  w-   w- w-   -    -   
|-15-15---16-16-|-17-17---18-18-|-19---------17-|---------|
|---------------|---------------|---------17----|-20---19-|
|---------------|---------------|----16---------|---------|
|---------------|---------------|---------------|---------|
|---------------|---------------|---------------|---------|
|---------------|---------------|---------------|---------|
  4     '         4     '         4     '         2  '     

Section 2.12 : bars 132 - 141

violino primo (lowered an octave, except last note/chord)


            u       h       u       h       u  
|-------------|---------------|---------------|
|-------------|---------------|---------------|
|-0-----------|---------------|---------------|
|---5---5-7-5-|---------5-7-5-|---------5-7-5-|
|-------------|-9-7-9---------|-9-7-9---------|
|-------------|---------------|---------------|
  4   '   8     4 8   ' 4 8     4 8   ' 4 8    

                                   
|---.-----.-|---.-----.-|-----.---|
|---.-----.-|---.-----.-|-----.---|
|---.-----.-|---.-----.-|-----.-4-|
|---.---5-.-|---.---5-.-|-----.---|
|-9-.-----.-|-9-.-----.-|-9---.---|
|---.-----.-|---.-----.-|-----.---|
  4   '       4   '       2 ' 4    

                                      
|-----------|-----------|--------|---|
|-----------|-----------|--------|---|
|-5-4-------|-----------|--------|-9-|
|-------7-5-|---------7-|--------|-9-|
|-----------|-7-6---7---|-10---9-|-7-|
|-----------|-----------|--------|---|
  4   '       4   '       2  '     1  

Tab key

From GITI tab v4 format.

layout


act:        h
       |----------------|
       |----------------|
pitch: |----7-----------|
       |----------------|
       |----------------|
       |----------------|
time:       4

act

p : pluck (default)
h : hammer-on
u : pull-off
w : sweep-pick
s : sustain from previous
t : tap
i : tremolo picking
f : pluck with finger
b : pluck with plectrum backed by finger (quasi-harmonic)
e : pluck string end (very near bridge)
m : pluck string middle
$ : damp/mute
+ : loud
- : quiet
< : volume increase
> : volume decrease
& : tied from previous

pitch

lines : are strings from, at top, 1 (thin E) to 6 (thick E)
number : is fret
. : rest

pitch suffix

>2? : bend up, 2 frets plus microtone above
<1 : bend down, from 1 frets above (i.e. pre-bend)
/15 : slide up, to fret 15
\8 : slide down, to fret 8
v : vibrato
r : trill
r14 : trill, 1 fret above (- for below), with 4 sub-sounds
h : neck harmonic (touching over fret)
i : bridge harmonic (touching with picking thumb)

time

4 : quarter-note (denominator of fraction of bar)
-4 : tied to the left
4- : tied to the right
4* : dotted - extended by half (one or more)
4-8 : extended by eighth
e : legato
s : staccato